  0
SECTION
  2
HEADER
  9
$ACADVER
  1
AC1014
  9
$ACADMAINTVER
 70
     9
  9
$DWGCODEPAGE
  3
ANSI_932
  9
$INSBASE
 10
0.0
 20
0.0
 30
0.0
  9
$EXTMIN
 10
-112.2741927110335
 20
-49.93800377889826
 30
0.0
  9
$EXTMAX
 10
110.2138648063021
 20
47.34894298054444
 30
0.0
  9
$LIMMIN
 10
-74.25
 20
-52.5
  9
$LIMMAX
 10
74.25
 20
52.5
  9
$ORTHOMODE
 70
     0
  9
$REGENMODE
 70
     1
  9
$FILLMODE
 70
     1
  9
$QTEXTMODE
 70
     0
  9
$MIRRTEXT
 70
     1
  9
$DRAGMODE
 70
     2
  9
$LTSCALE
 40
0.5
  9
$OSMODE
 70
    37
  9
$ATTMODE
 70
     1
  9
$TEXTSIZE
 40
0.2
  9
$TRACEWID
 40
0.05
  9
$TEXTSTYLE
  7
STANDARD
  9
$CLAYER
  8
0
  9
$CELTYPE
  6
BYLAYER
  9
$CECOLOR
 62
   256
  9
$CELTSCALE
 40
1.0
  9
$DELOBJ
 70
     1
  9
$DISPSILH
 70
     0
  9
$DIMSCALE
 40
1.0
  9
$DIMASZ
 40
1.25
  9
$DIMEXO
 40
0.0625
  9
$DIMDLI
 40
0.38
  9
$DIMRND
 40
0.0
  9
$DIMDLE
 40
0.0
  9
$DIMEXE
 40
0.18
  9
$DIMTP
 40
0.0
  9
$DIMTM
 40
0.0
  9
$DIMTXT
 40
0.18
  9
$DIMCEN
 40
0.09
  9
$DIMTSZ
 40
0.0
  9
$DIMTOL
 70
     0
  9
$DIMLIM
 70
     0
  9
$DIMTIH
 70
     1
  9
$DIMTOH
 70
     1
  9
$DIMSE1
 70
     0
  9
$DIMSE2
 70
     0
  9
$DIMTAD
 70
     3
  9
$DIMZIN
 70
     0
  9
$DIMBLK
  1

  9
$DIMASO
 70
     1
  9
$DIMSHO
 70
     1
  9
$DIMPOST
  1

  9
$DIMAPOST
  1

  9
$DIMALT
 70
     0
  9
$DIMALTD
 70
     2
  9
$DIMALTF
 40
25.4
  9
$DIMLFAC
 40
1.0
  9
$DIMTOFL
 70
     0
  9
$DIMTVP
 40
0.0
  9
$DIMTIX
 70
     0
  9
$DIMSOXD
 70
     0
  9
$DIMSAH
 70
     0
  9
$DIMBLK1
  1

  9
$DIMBLK2
  1

  9
$DIMSTYLE
  2
STANDARD
  9
$DIMCLRD
 70
     0
  9
$DIMCLRE
 70
     0
  9
$DIMCLRT
 70
     0
  9
$DIMTFAC
 40
1.0
  9
$DIMGAP
 40
0.09
  9
$DIMJUST
 70
     0
  9
$DIMSD1
 70
     0
  9
$DIMSD2
 70
     0
  9
$DIMTOLJ
 70
     1
  9
$DIMTZIN
 70
     0
  9
$DIMALTZ
 70
     0
  9
$DIMALTTZ
 70
     0
  9
$DIMFIT
 70
     3
  9
$DIMUPT
 70
     0
  9
$DIMUNIT
 70
     2
  9
$DIMDEC
 70
     4
  9
$DIMTDEC
 70
     4
  9
$DIMALTU
 70
     2
  9
$DIMALTTD
 70
     2
  9
$DIMTXSTY
  7
STANDARD
  9
$DIMAUNIT
 70
     0
  9
$LUNITS
 70
     2
  9
$LUPREC
 70
     4
  9
$SKETCHINC
 40
0.1
  9
$FILLETRAD
 40
0.5
  9
$AUNITS
 70
     0
  9
$AUPREC
 70
     0
  9
$MENU
  1
.
  9
$ELEVATION
 40
0.0
  9
$PELEVATION
 40
0.0
  9
$THICKNESS
 40
0.0
  9
$LIMCHECK
 70
     0
  9
$CHAMFERA
 40
0.5
  9
$CHAMFERB
 40
0.5
  9
$CHAMFERC
 40
1.0
  9
$CHAMFERD
 40
0.0
  9
$SKPOLY
 70
     0
  9
$TDCREATE
 40
2456337.411422836
  9
$TDUPDATE
 40
2456337.411422847
  9
$TDINDWG
 40
0.0000000116
  9
$TDUSRTIMER
 40
0.0000000116
  9
$USRTIMER
 70
     1
  9
$ANGBASE
 50
0.0
  9
$ANGDIR
 70
     0
  9
$PDMODE
 70
     0
  9
$PDSIZE
 40
1.0
  9
$PLINEWID
 40
0.0
  9
$COORDS
 70
     1
  9
$SPLFRAME
 70
     0
  9
$SPLINETYPE
 70
     6
  9
$SPLINESEGS
 70
     8
  9
$ATTDIA
 70
     0
  9
$ATTREQ
 70
     1
  9
$HANDLING
 70
     1
  9
$HANDSEED
  5
139
  9
$SURFTAB1
 70
     6
  9
$SURFTAB2
 70
     6
  9
$SURFTYPE
 70
     6
  9
$SURFU
 70
     6
  9
$SURFV
 70
     6
  9
$UCSNAME
  2

  9
$UCSORG
 10
0.0
 20
0.0
 30
0.0
  9
$UCSXDIR
 10
1.0
 20
0.0
 30
0.0
  9
$UCSYDIR
 10
0.0
 20
1.0
 30
0.0
  9
$PUCSNAME
  2

  9
$PUCSORG
 10
0.0
 20
0.0
 30
0.0
  9
$PUCSXDIR
 10
1.0
 20
0.0
 30
0.0
  9
$PUCSYDIR
 10
0.0
 20
1.0
 30
0.0
  9
$USERI1
 70
     0
  9
$USERI2
 70
     0
  9
$USERI3
 70
     0
  9
$USERI4
 70
     0
  9
$USERI5
 70
     0
  9
$USERR1
 40
0.0
  9
$USERR2
 40
0.0
  9
$USERR3
 40
0.0
  9
$USERR4
 40
0.0
  9
$USERR5
 40
0.0
  9
$WORLDVIEW
 70
     1
  9
$SHADEDGE
 70
     3
  9
$SHADEDIF
 70
    70
  9
$TILEMODE
 70
     1
  9
$MAXACTVP
 70
    64
  9
$PINSBASE
 10
0.0
 20
0.0
 30
0.0
  9
$PLIMCHECK
 70
     0
  9
$PEXTMIN
 10
1.000000000000000E+20
 20
1.000000000000000E+20
 30
1.000000000000000E+20
  9
$PEXTMAX
 10
-1.000000000000000E+20
 20
-1.000000000000000E+20
 30
-1.000000000000000E+20
  9
$PLIMMIN
 10
0.0
 20
0.0
  9
$PLIMMAX
 10
12.0
 20
9.0
  9
$UNITMODE
 70
     0
  9
$VISRETAIN
 70
     0
  9
$PLINEGEN
 70
     1
  9
$PSLTSCALE
 70
     0
  9
$TREEDEPTH
 70
  3020
  9
$PICKSTYLE
 70
     1
  9
$CMLSTYLE
  2
STANDARD
  9
$CMLJUST
 70
     0
  9
$CMLSCALE
 40
1.0
  9
$PROXYGRAPHICS
 70
     0
  9
$MEASUREMENT
 70
     1
  0
ENDSEC
  0
SECTION
  2
CLASSES
  0
CLASS
  1
ACDBDICTIONARYWDFLT
  2
AcDbDictionaryWithDefault
  3
ObjectDBX Classes
 90
        0
280
     0
281
     0
  0
CLASS
  1
XRECORD
  2
AcDbXrecord
  3
AutoCAD 2000
 90
        0
280
     0
281
     0
  0
CLASS
  1
LWPOLYLINE
  2
AcDbPolyline
  3
AutoCAD 2000
 90
        0
280
     0
281
     1
  0
CLASS
  1
HATCH
  2
AcDbHatch
  3
AutoCAD 2000
 90
        0
280
     0
281
     1
  0
CLASS
  1
ACDBPLACEHOLDER
  2
AcDbPlaceHolder
  3
ObjectDBX Classes
 90
        0
280
     0
281
     0
  0
CLASS
  1
LAYOUT
  2
AcDbLayout
  3
ObjectDBX Classes
 90
        0
280
     0
281
     0
  0
ENDSEC
  0
SECTION
  2
TABLES
  0
TABLE
  2
VPORT
  5
8
330
0
100
AcDbSymbolTable
 70
     1
  0
VPORT
  5
29
330
8
100
AcDbSymbolTableRecord
100
AcDbViewportTableRecord
  2
*ACTIVE
 70
     0
 10
0.0
 20
0.0
 11
1.0
 21
1.0
 12
0.0
 22
0.0
 13
0.0
 23
0.0
 14
0.5
 24
0.5
 15
0.5
 25
0.5
 16
0.0
 26
0.0
 36
1.0
 17
-1.030163952365665
 27
-1.714491126573783
 37
0.0
 40
32.22084201432089
 41
2.347733169799612
 42
50.0
 43
0.0
 44
0.0
 50
0.0
 51
0.0
 71
     0
 72
  1000
 73
     1
 74
     1
 75
     0
 76
     0
 77
     0
 78
     0
  0
ENDTAB
  0
TABLE
  2
LTYPE
  5
5
330
0
100
AcDbSymbolTable
 70
    28
  0
LTYPE
  5
14
330
5
100
AcDbSymbolTableRecord
100
AcDbLinetypeTableRecord
  2
BYBLOCK
 70
     0
  3

 72
    65
 73
     0
 40
0.0
  0
LTYPE
  5
15
330
5
100
AcDbSymbolTableRecord
100
AcDbLinetypeTableRecord
  2
BYLAYER
 70
     0
  3

 72
    65
 73
     0
 40
0.0
  0
LTYPE
  5
16
330
5
100
AcDbSymbolTableRecord
100
AcDbLinetypeTableRecord
  2
CONTINUOUS
 70
     0
  3
Solid line
 72
    65
 73
     0
 40
0.0
  0
LTYPE
  5
2B
330
5
100
AcDbSymbolTableRecord
100
AcDbLinetypeTableRecord
  2
HIDDENX2
 70
     0
  3
CADPAC LINETYPE
 72
    65
 73
     2
 40
4.242424242424249
 49
3.181818181818187
 74
     0
 49
-1.060606060606062
 74
     0
  0
LTYPE
  5
2C
330
5
100
AcDbSymbolTableRecord
100
AcDbLinetypeTableRecord
  2
HIDDEN
 70
     0
  3
CADPAC LINETYPE
 72
    65
 73
     2
 40
3.181818181818187
 49
2.121212121212125
 74
     0
 49
-1.060606060606062
 74
     0
  0
LTYPE
  5
2D
330
5
100
AcDbSymbolTableRecord
100
AcDbLinetypeTableRecord
  2
HIDDEN2
 70
     0
  3
CADPAC LINETYPE
 72
    65
 73
     2
 40
2.651515151515156
 49
1.590909090909094
 74
     0
 49
-1.060606060606062
 74
     0
  0
LTYPE
  5
2E
330
5
100
AcDbSymbolTableRecord
100
AcDbLinetypeTableRecord
  2
DASHED
 70
     0
  3
CADPAC LINETYPE
 72
    65
 73
     2
 40
2.969696969696969
 49
2.121212121212125
 74
     0
 49
-0.8484848484848442
 74
     0
  0
LTYPE
  5
2F
330
5
100
AcDbSymbolTableRecord
100
AcDbLinetypeTableRecord
  2
DASHED2
 70
     0
  3
CADPAC LINETYPE
 72
    65
 73
     2
 40
1.909090909090907
 49
1.272727272727252
 74
     0
 49
-0.6363636363636545
 74
     0
  0
LTYPE
  5
30
330
5
100
AcDbSymbolTableRecord
100
AcDbLinetypeTableRecord
  2
DASHEDX2
 70
     0
  3
CADPAC LINETYPE
 72
    65
 73
     2
 40
5.090909090909065
 49
4.242424242424221
 74
     0
 49
-0.8484848484848442
 74
     0
  0
LTYPE
  5
31
330
5
100
AcDbSymbolTableRecord
100
AcDbLinetypeTableRecord
  2
DOTX2
 70
     0
  3
CADPAC LINETYPE
 72
    65
 73
     2
 40
1.856060606060623
 49
0.0
 74
     0
 49
-1.856060606060623
 74
     0
  0
LTYPE
  5
32
330
5
100
AcDbSymbolTableRecord
100
AcDbLinetypeTableRecord
  2
DOT
 70
     0
  3
CADPAC LINETYPE
 72
    65
 73
     2
 40
1.484848484848499
 49
0.0
 74
     0
 49
-1.484848484848499
 74
     0
  0
LTYPE
  5
33
330
5
100
AcDbSymbolTableRecord
100
AcDbLinetypeTableRecord
  2
DOT2
 70
     0
  3
CADPAC LINETYPE
 72
    65
 73
     2
 40
1.113636363636374
 49
0.0
 74
     0
 49
-1.113636363636374
 74
     0
  0
LTYPE
  5
34
330
5
100
AcDbSymbolTableRecord
100
AcDbLinetypeTableRecord
  2
CENTERX2
 70
     0
  3
CADPAC LINETYPE
 72
    65
 73
     4
 40
6.363636363636374
 49
2.651515151515156
 74
     0
 49
-1.325757575757578
 74
     0
 49
1.060606060606062
 74
     0
 49
-1.325757575757578
 74
     0
  0
LTYPE
  5
35
330
5
100
AcDbSymbolTableRecord
100
AcDbLinetypeTableRecord
  2
CENTER
 70
     0
  3
CADPAC LINETYPE
 72
    65
 73
     4
 40
4.878787878787887
 49
2.121212121212125
 74
     0
 49
-1.060606060606062
 74
     0
 49
0.6363636363636374
 74
     0
 49
-1.060606060606062
 74
     0
  0
LTYPE
  5
36
330
5
100
AcDbSymbolTableRecord
100
AcDbLinetypeTableRecord
  2
CENTER2
 70
     0
  3
CADPAC LINETYPE
 72
    65
 73
     4
 40
3.393939393939399
 49
1.590909090909094
 74
     0
 49
-0.7954545454545468
 74
     0
 49
0.2121212121212125
 74
     0
 49
-0.7954545454545468
 74
     0
  0
LTYPE
  5
37
330
5
100
AcDbSymbolTableRecord
100
AcDbLinetypeTableRecord
  2
DASHDOTX2
 70
     0
  3
CADPAC LINETYPE
 72
    65
 73
     4
 40
10.18181818181816
 49
5.090909090909094
 74
     0
 49
-1.696969696969688
 74
     0
 49
1.696969696969688
 74
     0
 49
-1.696969696969688
 74
     0
  0
LTYPE
  5
38
330
5
100
AcDbSymbolTableRecord
100
AcDbLinetypeTableRecord
  2
DASHDOT
 70
     0
  3
CADPAC LINETYPE
 72
    65
 73
     4
 40
5.090909090909065
 49
2.545454545454533
 74
     0
 49
-0.8484848484848442
 74
     0
 49
0.8484848484848442
 74
     0
 49
-0.8484848484848442
 74
     0
  0
LTYPE
  5
39
330
5
100
AcDbSymbolTableRecord
100
AcDbLinetypeTableRecord
  2
DASHDOT2
 70
     0
  3
CADPAC LINETYPE
 72
    65
 73
     4
 40
3.26666666666665
 49
1.909090909090899
 74
     0
 49
-0.6363636363636331
 74
     0
 49
0.0848484848484844
 74
     0
 49
-0.6363636363636331
 74
     0
  0
LTYPE
  5
3A
330
5
100
AcDbSymbolTableRecord
100
AcDbLinetypeTableRecord
  2
DIVIDEX2
 70
     0
  3
CADPAC LINETYPE
 72
    65
 73
     6
 40
13.57575757575754
 49
5.090909090909094
 74
     0
 49
-1.696969696969688
 74
     0
 49
1.696969696969688
 74
     0
 49
-1.696969696969688
 74
     0
 49
1.696969696969688
 74
     0
 49
-1.696969696969688
 74
     0
  0
LTYPE
  5
3B
330
5
100
AcDbSymbolTableRecord
100
AcDbLinetypeTableRecord
  2
DIVIDE
 70
     0
  3
CADPAC LINETYPE
 72
    65
 73
     6
 40
6.787878787878753
 49
2.545454545454533
 74
     0
 49
-0.8484848484848442
 74
     0
 49
0.8484848484848442
 74
     0
 49
-0.8484848484848442
 74
     0
 49
0.8484848484848442
 74
     0
 49
-0.8484848484848442
 74
     0
  0
LTYPE
  5
3C
330
5
100
AcDbSymbolTableRecord
100
AcDbLinetypeTableRecord
  2
DIVIDE2
 70
     0
  3
CADPAC LINETYPE
 72
    65
 73
     6
 40
5.090909090909065
 49
1.909090909090899
 74
     0
 49
-0.6363636363636331
 74
     0
 49
0.6363636363636331
 74
     0
 49
-0.6363636363636331
 74
     0
 49
0.6363636363636331
 74
     0
 49
-0.6363636363636331
 74
     0
  0
LTYPE
  5
3D
330
5
100
AcDbSymbolTableRecord
100
AcDbLinetypeTableRecord
  2
BORDERX2
 70
     0
  3
CADPAC LINETYPE
 72
    65
 73
     6
 40
9.280303030303045
 49
2.651515151515156
 74
     0
 49
-1.325757575757578
 74
     0
 49
2.651515151515156
 74
     0
 49
-1.325757575757578
 74
     0
 49
0.0
 74
     0
 49
-1.325757575757578
 74
     0
  0
LTYPE
  5
3E
330
5
100
AcDbSymbolTableRecord
100
AcDbLinetypeTableRecord
  2
BORDER
 70
     0
  3
CADPAC LINETYPE
 72
    65
 73
     6
 40
7.424242424242436
 49
2.121212121212125
 74
     0
 49
-1.060606060606062
 74
     0
 49
2.121212121212125
 74
     0
 49
-1.060606060606062
 74
     0
 49
0.0
 74
     0
 49
-1.060606060606062
 74
     0
  0
LTYPE
  5
3F
330
5
100
AcDbSymbolTableRecord
100
AcDbLinetypeTableRecord
  2
BORDER2
 70
     0
  3
CADPAC LINETYPE
 72
    65
 73
     6
 40
5.51515151515153
 49
1.696969696969688
 74
     0
 49
-1.060606060606062
 74
     0
 49
0.6363636363636545
 74
     0
 49
-1.060606060606062
 74
     0
 49
0.0
 74
     0
 49
-1.060606060606062
 74
     0
  0
LTYPE
  5
40
330
5
100
AcDbSymbolTableRecord
100
AcDbLinetypeTableRecord
  2
PHANTOMX2
 70
     0
  3
CADPAC LINETYPE
 72
    65
 73
     6
 40
7.954545454545468
 49
2.651515151515156
 74
     0
 49
-1.060606060606062
 74
     0
 49
1.060606060606062
 74
     0
 49
-1.060606060606062
 74
     0
 49
1.060606060606062
 74
     0
 49
-1.060606060606062
 74
     0
  0
LTYPE
  5
41
330
5
100
AcDbSymbolTableRecord
100
AcDbLinetypeTableRecord
  2
PHANTOM
 70
     0
  3
CADPAC LINETYPE
 72
    65
 73
     6
 40
6.575757575757587
 49
2.121212121212125
 74
     0
 49
-1.060606060606062
 74
     0
 49
0.6363636363636374
 74
     0
 49
-1.060606060606062
 74
     0
 49
0.6363636363636374
 74
     0
 49
-1.060606060606062
 74
     0
  0
LTYPE
  5
42
330
5
100
AcDbSymbolTableRecord
100
AcDbLinetypeTableRecord
  2
PHANTOM2
 70
     0
  3
CADPAC LINETYPE
 72
    65
 73
     6
 40
5.62121212121213
 49
1.590909090909094
 74
     0
 49
-1.060606060606062
 74
     0
 49
0.424242424242425
 74
     0
 49
-1.060606060606062
 74
     0
 49
0.424242424242425
 74
     0
 49
-1.060606060606062
 74
     0
  0
LTYPE
  5
43
330
5
100
AcDbSymbolTableRecord
100
AcDbLinetypeTableRecord
  2
ACAD_ISO06W100
 70
     0
  3
CADPAC LINETYPE
 72
    65
 73
     8
 40
11.24242424242431
 49
5.090909090909094
 74
     0
 49
-1.060606060606062
 74
     0
 49
0.6363636363636545
 74
     0
 49
-1.060606060606062
 74
     0
 49
0.6363636363636545
 74
     0
 49
-1.060606060606062
 74
     0
 49
0.6363636363636545
 74
     0
 49
-1.060606060606062
 74
     0
  0
LTYPE
  5
44
330
5
100
AcDbSymbolTableRecord
100
AcDbLinetypeTableRecord
  2
ACAD_ISO13W100
 70
     0
  3
CADPAC LINETYPE
 72
    65
 73
     8
 40
8.484848484848499
 49
2.121212121212125
 74
     0
 49
-1.060606060606062
 74
     0
 49
2.121212121212125
 74
     0
 49
-1.060606060606062
 74
     0
 49
0.0
 74
     0
 49
-1.060606060606062
 74
     0
 49
0.0
 74
     0
 49
-1.060606060606062
 74
     0
  0
LTYPE
  5
45
330
5
100
AcDbSymbolTableRecord
100
AcDbLinetypeTableRecord
  2
ACAD_ISO14W100
 70
     0
  3
CADPAC LINETYPE
 72
    65
 73
     8
 40
6.363636363636374
 49
2.121212121212125
 74
     0
 49
-1.060606060606062
 74
     0
 49
0.0
 74
     0
 49
-1.060606060606062
 74
     0
 49
0.0
 74
     0
 49
-1.060606060606062
 74
     0
 49
0.0
 74
     0
 49
-1.060606060606062
 74
     0
  0
ENDTAB
  0
TABLE
  2
LAYER
  5
2
330
0
100
AcDbSymbolTable
 70
     3
  0
LAYER
  5
10
330
2
100
AcDbSymbolTableRecord
100
AcDbLayerTableRecord
  2
0
 70
     0
 62
     7
  6
CONTINUOUS
  0
LAYER
  5
46
330
2
100
AcDbSymbolTableRecord
100
AcDbLayerTableRecord
  2
LAYER0001
 70
     0
 62
     7
  6
CONTINUOUS
  0
LAYER
  5
47
330
2
100
AcDbSymbolTableRecord
100
AcDbLayerTableRecord
  2
LAYER0003
 70
     0
 62
     7
  6
CONTINUOUS
  0
ENDTAB
  0
TABLE
  2
STYLE
  5
3
330
0
100
AcDbSymbolTable
 70
     2
  0
STYLE
  5
11
330
3
100
AcDbSymbolTableRecord
100
AcDbTextStyleTableRecord
  2
STANDARD
 70
     0
 40
0.0
 41
1.0
 50
0.0
 71
     0
 42
0.2
  3
txt
  4

  0
STYLE
  5
5A
330
3
100
AcDbSymbolTableRecord
100
AcDbTextStyleTableRecord
  2
FDASTYLE0
 70
     0
 40
2.0
 41
0.8
 50
0.0
 71
     0
 42
0.2
  3
txt.shx
  4
bigfont
  0
ENDTAB
  0
TABLE
  2
VIEW
  5
6
330
0
100
AcDbSymbolTable
 70
     0
  0
ENDTAB
  0
TABLE
  2
UCS
  5
7
330
0
100
AcDbSymbolTable
 70
     0
  0
ENDTAB
  0
TABLE
  2
APPID
  5
9
330
0
100
AcDbSymbolTable
 70
     2
  0
APPID
  5
12
330
9
100
AcDbSymbolTableRecord
100
AcDbRegAppTableRecord
  2
ACAD
 70
     0
  0
APPID
  5
2A
330
9
100
AcDbSymbolTableRecord
100
AcDbRegAppTableRecord
  2
DAFUSIONOUT
 70
     0
  0
ENDTAB
  0
TABLE
  2
DIMSTYLE
  5
A
330
0
100
AcDbSymbolTable
 70
     1
  0
DIMSTYLE
105
27
330
A
100
AcDbSymbolTableRecord
100
AcDbDimStyleTableRecord
  2
STANDARD
 70
     0
  3

  4

  5

  6

  7

 40
1.0
 41
0.18
 42
0.0625
 43
0.38
 44
0.18
 45
0.0
 46
0.0
 47
0.0
 48
0.0
140
0.18
141
0.09
142
0.0
143
25.4
144
1.0
145
0.0
146
1.0
147
0.09
 71
     0
 72
     0
 73
     1
 74
     1
 75
     0
 76
     0
 77
     0
 78
     0
170
     0
171
     2
172
     0
173
     0
174
     0
175
     0
176
     0
177
     0
178
     0
270
     2
271
     4
272
     4
273
     2
274
     2
340
11
275
     0
280
     0
281
     0
282
     0
283
     1
284
     0
285
     0
286
     0
287
     3
288
     0
  0
ENDTAB
  0
TABLE
  2
BLOCK_RECORD
  5
1
330
0
100
AcDbSymbolTable
 70
     4
  0
BLOCK_RECORD
  5
1F
330
1
100
AcDbSymbolTableRecord
100
AcDbBlockTableRecord
  2
*MODEL_SPACE
  0
BLOCK_RECORD
  5
1B
330
1
100
AcDbSymbolTableRecord
100
AcDbBlockTableRecord
  2
*PAPER_SPACE
  0
BLOCK_RECORD
  5
49
330
1
100
AcDbSymbolTableRecord
100
AcDbBlockTableRecord
  2
DA_IMAGEDIMGROUP_1
  0
BLOCK_RECORD
  5
4C
330
1
100
AcDbSymbolTableRecord
100
AcDbBlockTableRecord
  2
DA_IMAGEDIMGROUP_2
  0
BLOCK_RECORD
  5
52
330
1
100
AcDbSymbolTableRecord
100
AcDbBlockTableRecord
  2
_OPEN30
  0
ENDTAB
  0
ENDSEC
  0
SECTION
  2
BLOCKS
  0
BLOCK
  5
20
330
1F
100
AcDbEntity
  8
0
100
AcDbBlockBegin
  2
*MODEL_SPACE
 70
     0
 71
     0
 10
0.0
 20
0.0
 30
0.0
  3
*MODEL_SPACE
  1

  0
ENDBLK
  5
21
330
1F
100
AcDbEntity
  8
0
100
AcDbBlockEnd
  0
BLOCK
  5
1C
330
1B
100
AcDbEntity
 67
     1
  8
0
100
AcDbBlockBegin
  2
*PAPER_SPACE
 70
     0
 71
     0
 10
0.0
 20
0.0
 30
0.0
  3
*PAPER_SPACE
  1

  0
ENDBLK
  5
1D
330
1B
100
AcDbEntity
 67
     1
  8
0
100
AcDbBlockEnd
  0
BLOCK
  5
4A
330
49
100
AcDbEntity
  8
0
100
AcDbBlockBegin
  2
DA_IMAGEDIMGROUP_1
 70
     0
 71
     0
 10
0.0
 20
0.0
 30
0.0
  3
DA_IMAGEDIMGROUP_1
  1

  0
LINE
  5
4F
330
49
100
AcDbEntity
  8
0
  6
CONTINUOUS
 62
     9
100
AcDbLine
 10
0.2207455696356977
 20
3.980039272603115
 30
0.0
 11
0.2207455696356977
 21
12.08003927260312
 31
0.0
  0
LINE
  5
50
330
49
100
AcDbEntity
  8
0
  6
CONTINUOUS
 62
     9
100
AcDbLine
 10
21.7707455696357
 20
3.980039272603115
 30
0.0
 11
21.7707455696357
 21
12.08003927260312
 31
0.0
  0
LINE
  5
51
330
49
100
AcDbEntity
  8
0
  6
CONTINUOUS
 62
     9
100
AcDbLine
 10
0.2207455696356977
 20
11.58003927260312
 30
0.0
 11
21.7707455696357
 21
11.58003927260312
 31
0.0
  0
INSERT
  5
58
330
49
100
AcDbEntity
  8
0
 62
     9
100
AcDbBlockReference
  2
_OPEN30
 10
0.2207455696356977
 20
11.58003927260312
 30
0.0
 41
1.500001393912182
 42
1.499994636989232
 50
180.0
  0
INSERT
  5
59
330
49
100
AcDbEntity
  8
0
 62
     9
100
AcDbBlockReference
  2
_OPEN30
 10
21.7707455696357
 20
11.58003927260312
 30
0.0
 41
1.500001393912182
 42
1.499994636989232
 50
360.0
  0
TEXT
  5
5B
330
49
100
AcDbEntity
  8
0
 62
     7
100
AcDbText
 10
6.995745569635698
 20
12.08003927260312
 30
0.0
 40
2.0
  1
21.55
 41
0.8
  7
FDASTYLE0
 72
     5
 11
14.9957455696357
 21
12.08003927260312
 31
0.0
100
AcDbText
  0
ENDBLK
  5
4B
330
49
100
AcDbEntity
  8
0
100
AcDbBlockEnd
  0
BLOCK
  5
4D
330
4C
100
AcDbEntity
  8
0
100
AcDbBlockBegin
  2
DA_IMAGEDIMGROUP_2
 70
     0
 71
     0
 10
0.0
 20
0.0
 30
0.0
  3
DA_IMAGEDIMGROUP_2
  1

  0
LINE
  5
5C
330
4C
100
AcDbEntity
  8
0
  6
CONTINUOUS
 62
     9
100
AcDbLine
 10
21.7707455696357
 20
-6.819960727396882
 30
0.0
 11
21.7707455696357
 21
-14.91996072739688
 31
0.0
  0
LINE
  5
5D
330
4C
100
AcDbEntity
  8
0
  6
CONTINUOUS
 62
     9
100
AcDbLine
 10
17.7707455696357
 20
-3.419960727396891
 30
0.0
 11
17.7707455696357
 21
-14.91996072739688
 31
0.0
  0
LINE
  5
5E
330
4C
100
AcDbEntity
  8
0
  6
CONTINUOUS
 62
     9
100
AcDbLine
 10
17.7707455696357
 20
-14.41996072739688
 30
0.0
 11
21.7707455696357
 21
-14.41996072739688
 31
0.0
  0
LINE
  5
5F
330
4C
100
AcDbEntity
  8
0
  6
CONTINUOUS
 62
     9
100
AcDbLine
 10
9.670745569635701
 20
-14.41996072739688
 30
0.0
 11
17.7707455696357
 21
-14.41996072739688
 31
0.0
  0
INSERT
  5
60
330
4C
100
AcDbEntity
  8
0
 62
     9
100
AcDbBlockReference
  2
_OPEN30
 10
17.7707455696357
 20
-14.41996072739688
 30
0.0
 41
1.500001393912182
 42
1.499994636989232
 50
360.0
  0
LINE
  5
61
330
4C
100
AcDbEntity
  8
0
  6
CONTINUOUS
 62
     9
100
AcDbLine
 10
24.2707455696357
 20
-14.41996072739688
 30
0.0
 11
21.7707455696357
 21
-14.41996072739688
 31
0.0
  0
INSERT
  5
62
330
4C
100
AcDbEntity
  8
0
 62
     9
100
AcDbBlockReference
  2
_OPEN30
 10
21.7707455696357
 20
-14.41996072739688
 30
0.0
 41
1.500001393912182
 42
1.499994636989232
 50
180.0
  0
TEXT
  5
63
330
4C
100
AcDbEntity
  8
0
 62
     7
100
AcDbText
 10
10.1707455696357
 20
-13.91996072739688
 30
0.0
 40
2.0
  1
4
 41
0.7999999999999998
  7
FDASTYLE0
 72
     5
 11
11.7707455696357
 21
-13.91996072739688
 31
0.0
100
AcDbText
  0
TEXT
  5
64
330
4C
100
AcDbEntity
  8
0
 62
     7
100
AcDbText
 10
12.2707455696357
 20
-12.61996072739688
 30
0.0
 40
1.3
  1
 0
 41
0.8
  7
FDASTYLE0
 72
     5
 11
14.3507455696357
 21
-12.61996072739688
 31
0.0
100
AcDbText
  0
TEXT
  5
65
330
4C
100
AcDbEntity
  8
0
 62
     7
100
AcDbText
 10
12.2707455696357
 20
-14.01996072739688
 30
0.0
 40
1.3
  1
-0.3
 41
0.8
  7
FDASTYLE0
 72
     5
 11
16.4307455696357
 21
-14.01996072739688
 31
0.0
100
AcDbText
  0
ENDBLK
  5
4E
330
4C
100
AcDbEntity
  8
0
100
AcDbBlockEnd
  0
BLOCK
  5
53
330
52
100
AcDbEntity
  8
0
100
AcDbBlockBegin
  2
_OPEN30
 70
     0
 71
     0
 10
0.0
 20
0.0
 30
0.0
  3
_OPEN30
  1

  0
LINE
  5
55
330
52
100
AcDbEntity
  8
0
  6
BYBLOCK
 62
     0
100
AcDbLine
 10
-1.0
 20
0.267949
 30
0.0
 11
0.0
 21
0.0
 31
0.0
  0
LINE
  5
56
330
52
100
AcDbEntity
  8
0
  6
BYBLOCK
 62
     0
100
AcDbLine
 10
0.0
 20
0.0
 30
0.0
 11
-1.0
 21
-0.267949
 31
0.0
  0
LINE
  5
57
330
52
100
AcDbEntity
  8
0
  6
BYBLOCK
 62
     0
100
AcDbLine
 10
0.0
 20
0.0
 30
0.0
 11
-1.0
 21
0.0
 31
0.0
  0
ENDBLK
  5
54
330
52
100
AcDbEntity
  8
0
100
AcDbBlockEnd
  0
ENDSEC
  0
SECTION
  2
ENTITIES
  0
LINE
  5
66
330
1F
100
AcDbEntity
  8
0
  6
CENTER
 62
     9
100
AcDbLine
 10
-10.2492503735566
 20
-1.419960727396877
 30
0.0
 11
22.31873944837136
 21
-1.419960727396877
 31
0.0
  0
LINE
  5
67
330
1F
100
AcDbEntity
  8
0
  6
CENTER
 62
     9
100
AcDbLine
 10
-26.29446755302043
 20
-1.41996072739687
 30
0.0
 11
-38.1115068719216
 21
-1.41996072739687
 31
0.0
  0
LINE
  5
68
330
1F
100
AcDbEntity
  8
0
  6
CENTER
 62
     9
100
AcDbLine
 10
-32.0920459944866
 20
4.59578269663682
 30
0.0
 11
-32.0920459944866
 21
-7.437032640949554
 31
0.0
  0
LINE
  5
69
330
1F
100
AcDbEntity
  8
0
  6
DASHED2
 62
     9
100
AcDbLine
 10
19.3707455696357
 20
1.330039272603109
 30
0.0
 11
19.3707455696357
 21
-4.169960727396877
 31
0.0
  0
LINE
  5
6A
330
1F
100
AcDbEntity
  8
0
  6
DASHED2
 62
     9
100
AcDbLine
 10
20.7707455696357
 20
1.580039272603109
 30
0.0
 11
20.7707455696357
 21
-4.419960727396877
 31
0.0
  0
LINE
  5
6B
330
1F
100
AcDbEntity
  8
0
  6
DASHED2
 62
     9
100
AcDbLine
 10
19.3707455696357
 20
1.330039272603109
 30
0.0
 11
20.7707455696357
 21
1.330039272603109
 31
0.0
  0
LINE
  5
6C
330
1F
100
AcDbEntity
  8
0
  6
DASHED2
 62
     9
100
AcDbLine
 10
19.3707455696357
 20
-4.169960727396877
 30
0.0
 11
20.7707455696357
 21
-4.169960727396877
 31
0.0
  0
LINE
  5
6D
330
1F
100
AcDbEntity
  8
0
  6
DASHED2
 62
     9
100
AcDbLine
 10
19.3707455696357
 20
-3.919960727396877
 30
0.0
 11
20.7707455696357
 21
-3.919960727396877
 31
0.0
  0
LINE
  5
6E
330
1F
100
AcDbEntity
  8
0
  6
DASHED2
 62
     9
100
AcDbLine
 10
19.3707455696357
 20
1.080039272603109
 30
0.0
 11
20.7707455696357
 21
1.080039272603109
 31
0.0
  0
LINE
  5
6F
330
1F
100
AcDbEntity
  8
0
  6
DASHED2
 62
     9
100
AcDbLine
 10
20.7707455696357
 20
1.580039272603109
 30
0.0
 11
21.7707455696357
 21
1.580039272603109
 31
0.0
  0
LINE
  5
70
330
1F
100
AcDbEntity
  8
0
  6
DASHED2
 62
     9
100
AcDbLine
 10
20.7707455696357
 20
-4.419960727396877
 30
0.0
 11
21.7707455696357
 21
-4.419960727396877
 31
0.0
  0
LINE
  5
71
330
1F
100
AcDbEntity
  8
0
  6
CONTINUOUS
 62
     9
100
AcDbLine
 10
-1.779254430364302
 20
-3.919960727396877
 30
0.0
 11
-0.5792544303643066
 21
-3.919960727396877
 31
0.0
  0
LINE
  5
72
330
1F
100
AcDbEntity
  8
0
  6
CONTINUOUS
 62
     9
100
AcDbLine
 10
-1.779254430364302
 20
1.080039272603109
 30
0.0
 11
-0.5792544303643066
 21
1.080039272603109
 31
0.0
  0
LINE
  5
73
330
1F
100
AcDbEntity
  8
0
  6
CONTINUOUS
 62
     3
100
AcDbLine
 10
21.3707455696357
 20
-6.419960727396877
 30
0.0
 11
21.6707455696357
 21
-6.419960727396877
 31
0.0
  0
LINE
  5
74
330
1F
100
AcDbEntity
  8
0
  6
CONTINUOUS
 62
     3
100
AcDbLine
 10
21.2707455696357
 20
-1.419960727396877
 30
0.0
 11
21.2707455696357
 21
-6.319960727396882
 31
0.0
  0
LINE
  5
75
330
1F
100
AcDbEntity
  8
0
  6
CONTINUOUS
 62
     3
100
AcDbLine
 10
21.7707455696357
 20
-6.319960727396882
 30
0.0
 11
21.6707455696357
 21
-6.419960727396877
 31
0.0
  0
LINE
  5
76
330
1F
100
AcDbEntity
  8
0
  6
CONTINUOUS
 62
     3
100
AcDbLine
 10
21.7707455696357
 20
-6.319960727396882
 30
0.0
 11
21.7707455696357
 21
3.480039272603115
 31
0.0
  0
LINE
  5
77
330
1F
100
AcDbEntity
  8
0
  6
CONTINUOUS
 62
     3
100
AcDbLine
 10
21.2707455696357
 20
-1.419960727396877
 30
0.0
 11
21.2707455696357
 21
3.480039272603115
 31
0.0
  0
LINE
  5
78
330
1F
100
AcDbEntity
  8
0
  6
CONTINUOUS
 62
     3
100
AcDbLine
 10
21.3707455696357
 20
3.580039272603123
 30
0.0
 11
21.6707455696357
 21
3.580039272603123
 31
0.0
  0
LINE
  5
79
330
1F
100
AcDbEntity
  8
0
  6
CONTINUOUS
 62
     3
100
AcDbLine
 10
21.6707455696357
 20
3.580039272603123
 30
0.0
 11
21.7707455696357
 21
3.480039272603115
 31
0.0
  0
LINE
  5
7A
330
1F
100
AcDbEntity
  8
0
  6
CONTINUOUS
 62
     3
100
AcDbLine
 10
21.3707455696357
 20
-6.419960727396877
 30
0.0
 11
21.2707455696357
 21
-6.319960727396882
 31
0.0
  0
LINE
  5
7B
330
1F
100
AcDbEntity
  8
0
  6
CONTINUOUS
 62
     3
100
AcDbLine
 10
21.3707455696357
 20
3.580039272603123
 30
0.0
 11
21.2707455696357
 21
3.480039272603115
 31
0.0
  0
LINE
  5
7C
330
1F
100
AcDbEntity
  8
0
  6
CONTINUOUS
 62
     3
100
AcDbLine
 10
21.2707455696357
 20
-6.219960727396888
 30
0.0
 11
21.2707455696357
 21
-1.419960727396877
 31
0.0
  0
LINE
  5
7D
330
1F
100
AcDbEntity
  8
0
  6
CONTINUOUS
 62
     3
100
AcDbLine
 10
21.2707455696357
 20
-1.419960727396877
 30
0.0
 11
21.2707455696357
 21
3.380039272603121
 31
0.0
  0
LINE
  5
7E
330
1F
100
AcDbEntity
  8
0
  6
CONTINUOUS
 62
     3
100
AcDbLine
 10
-2.429254430364308
 20
-0.4199607273968766
 30
0.0
 11
-2.429254430364308
 21
-2.419960727396877
 31
0.0
  0
LINE
  5
7F
330
1F
100
AcDbEntity
  8
0
  6
CONTINUOUS
 62
     3
100
AcDbLine
 10
-9.329254430364314
 20
-2.319960727396882
 30
0.0
 11
-9.329254430364314
 21
-0.9199607273968766
 31
0.0
  0
LINE
  5
80
330
1F
100
AcDbEntity
  8
0
  6
CONTINUOUS
 62
     3
100
AcDbLine
 10
-9.329254430364314
 20
-0.9199607273968766
 30
0.0
 11
-4.329254430364307
 21
-0.9199607273968766
 31
0.0
  0
LINE
  5
81
330
1F
100
AcDbEntity
  8
0
  6
CONTINUOUS
 62
     3
100
AcDbLine
 10
-4.329254430364307
 20
-0.9199607273968766
 30
0.0
 11
-4.329254430364307
 21
-0.4199607273968766
 31
0.0
  0
LINE
  5
82
330
1F
100
AcDbEntity
  8
0
  6
CONTINUOUS
 62
     3
100
AcDbLine
 10
-4.329254430364307
 20
-0.4199607273968766
 30
0.0
 11
-2.429254430364308
 21
-0.4199607273968766
 31
0.0
  0
LINE
  5
83
330
1F
100
AcDbEntity
  8
0
  6
CONTINUOUS
 62
     3
100
AcDbLine
 10
-9.229254430364305
 20
-2.419960727396877
 30
0.0
 11
-2.429254430364308
 21
-2.419960727396877
 31
0.0
  0
LINE
  5
84
330
1F
100
AcDbEntity
  8
0
  6
CONTINUOUS
 62
     3
100
AcDbLine
 10
-9.329254430364314
 20
-2.319960727396882
 30
0.0
 11
-9.229254430364305
 21
-2.419960727396877
 31
0.0
  0
LINE
  5
85
330
1F
100
AcDbEntity
  8
0
  6
CONTINUOUS
 62
     3
100
AcDbLine
 10
-9.229254430364305
 20
-2.419960727396877
 30
0.0
 11
-9.229254430364305
 21
-0.9199607273968766
 31
0.0
  0
LINE
  5
86
330
1F
100
AcDbEntity
  8
0
  6
CONTINUOUS
 62
     3
100
AcDbLine
 10
-2.429254430364308
 20
0.0800392726031234
 30
0.0
 11
-2.029254430364309
 21
0.0800392726031234
 31
0.0
  0
LINE
  5
87
330
1F
100
AcDbEntity
  8
0
  6
CONTINUOUS
 62
     3
100
AcDbLine
 10
-2.429254430364315
 20
-2.919960727396877
 30
0.0
 11
-2.429254430364308
 21
0.0800392726031234
 31
0.0
  0
LINE
  5
88
330
1F
100
AcDbEntity
  8
0
  6
CONTINUOUS
 62
     3
100
AcDbLine
 10
-2.029254430364309
 20
-3.219960727396874
 30
0.0
 11
-2.029254430364309
 21
0.3300392726031234
 31
0.0
  0
LINE
  5
89
330
1F
100
AcDbEntity
  8
0
  6
CONTINUOUS
 62
     3
100
AcDbLine
 10
-2.029254430364309
 20
-2.919960727396877
 30
0.0
 11
-2.429254430364315
 21
-2.919960727396877
 31
0.0
  0
LINE
  5
8A
330
1F
100
AcDbEntity
  8
0
  6
CONTINUOUS
 62
     3
100
AcDbLine
 10
-2.029254430364309
 20
0.3300392726031234
 30
0.0
 11
-1.779254430364309
 21
0.3300392726031234
 31
0.0
  0
LINE
  5
8B
330
1F
100
AcDbEntity
  8
0
  6
CONTINUOUS
 62
     3
100
AcDbLine
 10
-2.029254430364309
 20
-3.219960727396874
 30
0.0
 11
-1.779254430364309
 21
-3.219960727396874
 31
0.0
  0
LINE
  5
8C
330
1F
100
AcDbEntity
  8
0
  6
CONTINUOUS
 62
     3
100
AcDbLine
 10
21.2707455696357
 20
-1.419960727396877
 30
0.0
 11
21.2707455696357
 21
-6.319960727396882
 31
0.0
  0
LINE
  5
8D
330
1F
100
AcDbEntity
  8
0
  6
CONTINUOUS
 62
     3
100
AcDbLine
 10
21.2707455696357
 20
3.480039272603115
 30
0.0
 11
21.2707455696357
 21
-1.419960727396877
 31
0.0
  0
LINE
  5
8E
330
1F
100
AcDbEntity
  8
0
  6
CONTINUOUS
 62
     3
100
AcDbLine
 10
1.420745569635692
 20
-6.419960727396877
 30
0.0
 11
21.0707455696357
 21
-6.419960727396877
 31
0.0
  0
LINE
  5
8F
330
1F
100
AcDbEntity
  8
0
  6
CONTINUOUS
 62
     3
100
AcDbLine
 10
1.420745569635692
 20
3.580039272603123
 30
0.0
 11
21.0707455696357
 21
3.580039272603123
 31
0.0
  0
LINE
  5
90
330
1F
100
AcDbEntity
  8
0
  6
CONTINUOUS
 62
     3
100
AcDbLine
 10
1.220745569635696
 20
3.380039272603121
 30
0.0
 11
1.420745569635692
 21
3.580039272603123
 31
0.0
  0
LINE
  5
91
330
1F
100
AcDbEntity
  8
0
  6
CONTINUOUS
 62
     3
100
AcDbLine
 10
1.420745569635692
 20
-6.419960727396877
 30
0.0
 11
1.220745569635696
 21
-6.219960727396888
 31
0.0
  0
LINE
  5
92
330
1F
100
AcDbEntity
  8
0
  6
CONTINUOUS
 62
     3
100
AcDbLine
 10
21.0707455696357
 20
-6.419960727396877
 30
0.0
 11
21.2707455696357
 21
-6.219960727396888
 31
0.0
  0
LINE
  5
93
330
1F
100
AcDbEntity
  8
0
  6
CONTINUOUS
 62
     3
100
AcDbLine
 10
21.0707455696357
 20
3.580039272603123
 30
0.0
 11
21.2707455696357
 21
3.380039272603121
 31
0.0
  0
LINE
  5
94
330
1F
100
AcDbEntity
  8
0
  6
CONTINUOUS
 62
     3
100
AcDbLine
 10
0.2207455696356977
 20
-6.319960727396882
 30
0.0
 11
0.2207455696356977
 21
3.480039272603115
 31
0.0
  0
LINE
  5
95
330
1F
100
AcDbEntity
  8
0
  6
CONTINUOUS
 62
     3
100
AcDbLine
 10
-1.779254430364302
 20
-4.169960727396877
 30
0.0
 11
-0.5792544303643066
 21
-4.169960727396877
 31
0.0
  0
LINE
  5
96
330
1F
100
AcDbEntity
  8
0
  6
CONTINUOUS
 62
     3
100
AcDbLine
 10
-0.5792544303643066
 20
-3.86996072739688
 30
0.0
 11
-0.2792544303643023
 21
-3.86996072739688
 31
0.0
  0
LINE
  5
97
330
1F
100
AcDbEntity
  8
0
  6
CONTINUOUS
 62
     3
100
AcDbLine
 10
-0.2792544303643023
 20
-4.419960727396877
 30
0.0
 11
0.2207455696356977
 21
-4.419960727396877
 31
0.0
  0
LINE
  5
98
330
1F
100
AcDbEntity
  8
0
  6
CONTINUOUS
 62
     3
100
AcDbLine
 10
0.3207455696356991
 20
-6.419960727396877
 30
0.0
 11
1.120745569635695
 21
-6.419960727396877
 31
0.0
  0
LINE
  5
99
330
1F
100
AcDbEntity
  8
0
  6
CONTINUOUS
 62
     3
100
AcDbLine
 10
0.3207455696356991
 20
-6.419960727396877
 30
0.0
 11
0.2207455696356977
 21
-6.319960727396882
 31
0.0
  0
LINE
  5
9A
330
1F
100
AcDbEntity
  8
0
  6
CONTINUOUS
 62
     3
100
AcDbLine
 10
-0.2792544303643023
 20
1.580039272603123
 30
0.0
 11
0.2207455696356977
 21
1.580039272603123
 31
0.0
  0
LINE
  5
9B
330
1F
100
AcDbEntity
  8
0
  6
CONTINUOUS
 62
     3
100
AcDbLine
 10
-0.2792544303643023
 20
1.580039272603123
 30
0.0
 11
-0.2792544303643023
 21
-4.419960727396877
 31
0.0
  0
LINE
  5
9C
330
1F
100
AcDbEntity
  8
0
  6
CONTINUOUS
 62
     3
100
AcDbLine
 10
-1.779254430364302
 20
1.330039272603109
 30
0.0
 11
-0.5792544303643066
 21
1.330039272603109
 31
0.0
  0
LINE
  5
9D
330
1F
100
AcDbEntity
  8
0
  6
CONTINUOUS
 62
     3
100
AcDbLine
 10
-0.5792544303643066
 20
1.030039272603126
 30
0.0
 11
-0.2792544303643023
 21
1.030039272603126
 31
0.0
  0
LINE
  5
9E
330
1F
100
AcDbEntity
  8
0
  6
CONTINUOUS
 62
     3
100
AcDbLine
 10
-0.5792544303643066
 20
1.330039272603109
 30
0.0
 11
-0.5792544303643066
 21
-4.169960727396877
 31
0.0
  0
LINE
  5
9F
330
1F
100
AcDbEntity
  8
0
  6
CONTINUOUS
 62
     3
100
AcDbLine
 10
1.120745569635695
 20
3.580039272603123
 30
0.0
 11
0.3207455696356991
 21
3.580039272603123
 31
0.0
  0
LINE
  5
A0
330
1F
100
AcDbEntity
  8
0
  6
CONTINUOUS
 62
     3
100
AcDbLine
 10
0.3207455696356991
 20
3.580039272603123
 30
0.0
 11
0.2207455696356977
 21
3.480039272603115
 31
0.0
  0
LINE
  5
A1
330
1F
100
AcDbEntity
  8
0
  6
CONTINUOUS
 62
     3
100
AcDbLine
 10
1.220745569635696
 20
3.480039272603115
 30
0.0
 11
1.220745569635696
 21
-6.319960727396882
 31
0.0
  0
LINE
  5
A2
330
1F
100
AcDbEntity
  8
0
  6
CONTINUOUS
 62
     3
100
AcDbLine
 10
1.120745569635695
 20
-6.419960727396877
 30
0.0
 11
1.220745569635696
 21
-6.319960727396882
 31
0.0
  0
LINE
  5
A3
330
1F
100
AcDbEntity
  8
0
  6
CONTINUOUS
 62
     3
100
AcDbLine
 10
1.120745569635695
 20
3.580039272603123
 30
0.0
 11
1.220745569635696
 21
3.480039272603115
 31
0.0
  0
LINE
  5
A4
330
1F
100
AcDbEntity
  8
0
  6
CONTINUOUS
 62
     3
100
AcDbLine
 10
-1.779254430364302
 20
1.330039272603109
 30
0.0
 11
-1.779254430364302
 21
-4.169960727396877
 31
0.0
  0
CIRCLE
  5
A5
330
1F
100
AcDbEntity
  8
0
  6
CONTINUOUS
 62
     3
100
AcDbCircle
 10
-32.09204599448661
 20
-1.419960727396884
 30
0.0
 40
1.0
  0
CIRCLE
  5
A6
330
1F
100
AcDbEntity
  8
0
  6
CONTINUOUS
 62
     3
100
AcDbCircle
 10
-32.09204599448661
 20
-1.419960727396884
 30
0.0
 40
2.5
  0
CIRCLE
  5
A7
330
1F
100
AcDbEntity
  8
0
  6
CONTINUOUS
 62
     3
100
AcDbCircle
 10
-32.09204599448661
 20
-1.419960727396884
 30
0.0
 40
3.0
  0
LINE
  5
A8
330
1F
100
AcDbEntity
  8
0
  6
CONTINUOUS
 62
     3
100
AcDbLine
 10
-32.95807139827103
 20
-0.9199607273968837
 30
0.0
 11
-31.22602059070216
 21
-0.9199607273968837
 31
0.0
  0
ARC
  5
A9
330
1F
100
AcDbEntity
  8
0
  6
CONTINUOUS
 62
     3
100
AcDbCircle
 10
-32.09204599448661
 20
-1.419960727396884
 30
0.0
 40
2.0
100
AcDbArc
 50
195.0000000000001
 51
525.0
  0
LINE
  5
AA
330
1F
100
AcDbEntity
  8
0
  6
CONTINUOUS
 62
     3
100
AcDbLine
 10
-34.02389764706474
 20
-0.902322637191844
 30
0.0
 11
-33.05797182077568
 21
-1.161141682294357
 31
0.0
  0
LINE
  5
AB
330
1F
100
AcDbEntity
  8
0
  6
CONTINUOUS
 62
     3
100
AcDbLine
 10
-32.09204599448661
 20
-0.4199607273968837
 30
0.0
 11
-32.09204599448661
 21
0.0800392726031163
 31
0.0
  0
LINE
  5
AC
330
1F
100
AcDbEntity
  8
0
  6
CONTINUOUS
 62
     3
100
AcDbLine
 10
-31.22602059070216
 20
-0.9199607273968837
 30
0.0
 11
-30.79300788880995
 21
-0.6699607273968837
 31
0.0
  0
LINE
  5
AD
330
1F
100
AcDbEntity
  8
0
  6
CONTINUOUS
 62
     3
100
AcDbLine
 10
-31.22602059070216
 20
-1.919960727396884
 30
0.0
 11
-30.79300788880993
 21
-2.169960727396884
 31
0.0
  0
LINE
  5
AE
330
1F
100
AcDbEntity
  8
0
  6
CONTINUOUS
 62
     3
100
AcDbLine
 10
-32.09204599448661
 20
-3.419960727396884
 30
0.0
 11
-32.09204599448661
 21
-2.419960727396884
 31
0.0
  0
ARC
  5
AF
330
1F
100
AcDbEntity
  8
0
  6
CONTINUOUS
 62
     3
100
AcDbCircle
 10
-32.09204599448661
 20
-1.419960727396884
 30
0.0
 40
1.5
100
AcDbArc
 50
29.99999999999977
 51
89.99999999999999
  0
LINE
  5
B0
330
1F
100
AcDbEntity
  8
0
  6
CONTINUOUS
 62
     3
100
AcDbLine
 10
-34.02389764706474
 20
-1.937598817601923
 30
0.0
 11
-33.05797182077568
 21
-1.678779772499411
 31
0.0
  0
ARC
  5
B1
330
1F
100
AcDbEntity
  8
0
  6
CONTINUOUS
 62
     3
100
AcDbCircle
 10
-32.09204599448661
 20
-1.419960727396884
 30
0.0
 40
1.5
100
AcDbArc
 50
269.9999999999999
 51
330.0000000000002
  0
ARC
  5
B2
330
1F
100
AcDbEntity
  8
0
  6
CONTINUOUS
 62
     3
100
AcDbCircle
 10
-32.09204599448661
 20
-1.419960727396884
 30
0.0
 40
1.75
100
AcDbArc
 50
165.0
 51
195.0
  0
CIRCLE
  5
B3
330
1F
100
AcDbEntity
  8
0
  6
CONTINUOUS
 62
     3
100
AcDbCircle
 10
-32.09204599448661
 20
-1.419960727396884
 30
0.0
 40
4.0
  0
CIRCLE
  5
B4
330
1F
100
AcDbEntity
  8
0
  6
CONTINUOUS
 62
     3
100
AcDbCircle
 10
-32.09204599448661
 20
-1.419960727396884
 30
0.0
 40
4.300000000000011
  0
CIRCLE
  5
B5
330
1F
100
AcDbEntity
  8
0
  6
CONTINUOUS
 62
     3
100
AcDbCircle
 10
-32.0920459944866
 20
-1.41996072739687
 30
0.0
 40
5.0
  0
TEXT
  5
B6
330
1F
100
AcDbEntity
  8
0
 62
     7
100
AcDbText
 10
25.04077617406883
 20
-12.78439971521856
 30
0.0
 40
2.0
  1
（Ｐ＝0.5）
 41
0.7179487179487182
  7
FDASTYLE0
 72
     5
 11
36.24077617406883
 21
-12.78439971521856
 31
0.0
100
AcDbText
  0
TEXT
  5
B7
330
1F
100
AcDbEntity
  8
0
 62
     7
100
AcDbText
 10
26.19584983847618
 20
-10.09161920912939
 30
0.0
 40
2.0
  1
Ｍ5.5
 41
0.7619047619047621
  7
FDASTYLE0
 72
     5
 11
32.59584983847618
 21
-10.09161920912939
 31
0.0
100
AcDbText
  0
LINE
  5
B8
330
1F
100
AcDbEntity
  8
0
  6
CONTINUOUS
 62
     9
100
AcDbLine
 10
20.7707455696357
 20
-1.419960727396877
 30
0.0
 11
25.59692275322793
 21
-10.41996072739688
 31
0.0
  0
INSERT
  5
B9
330
1F
100
AcDbEntity
  8
0
 62
     9
100
AcDbBlockReference
  2
_OPEN30
 10
20.7707455696357
 20
-1.419960727396877
 30
0.0
 41
1.500001393912182
 42
1.499994636989232
 50
118.2020743399068
  0
LINE
  5
BA
330
1F
100
AcDbEntity
  8
0
  6
CONTINUOUS
 62
     9
100
AcDbLine
 10
25.59692275322793
 20
-10.41996072739688
 30
0.0
 11
36.05117896719026
 21
-10.41996072739688
 31
0.0
  0
LINE
  5
BB
330
1F
100
AcDbEntity
  8
LAYER0001
  6
CONTINUOUS
 62
     9
100
AcDbLine
 10
32.96682327059874
 20
-6.419960727396877
 30
0.0
 11
32.96682327059874
 21
3.580039272603123
 31
0.0
  0
INSERT
  5
BC
330
1F
100
AcDbEntity
  8
LAYER0001
 62
     9
100
AcDbBlockReference
  2
_OPEN30
 10
32.96682327059874
 20
-6.419960727396877
 30
0.0
 41
1.500001393912182
 42
1.499994636989232
 50
270.0
  0
INSERT
  5
BD
330
1F
100
AcDbEntity
  8
LAYER0001
 62
     9
100
AcDbBlockReference
  2
_OPEN30
 10
32.96682327059874
 20
3.580039272603123
 30
0.0
 41
1.500001393912182
 42
1.499994636989232
 50
90.0
  0
LINE
  5
BE
330
1F
100
AcDbEntity
  8
LAYER0001
  6
CONTINUOUS
 62
     9
100
AcDbLine
 10
-9.329254430364314
 20
7.580039272603123
 30
0.0
 11
-4.329254430364307
 21
7.580039272603123
 31
0.0
  0
INSERT
  5
BF
330
1F
100
AcDbEntity
  8
LAYER0001
 62
     9
100
AcDbBlockReference
  2
_OPEN30
 10
-9.329254430364314
 20
7.580039272603123
 30
0.0
 41
1.500001393912182
 42
1.499994636989232
 50
180.0
  0
INSERT
  5
C0
330
1F
100
AcDbEntity
  8
LAYER0001
 62
     9
100
AcDbBlockReference
  2
_OPEN30
 10
-4.329254430364307
 20
7.580039272603123
 30
0.0
 41
1.500001393912182
 42
1.499994636989232
 50
360.0
  0
LINE
  5
C1
330
1F
100
AcDbEntity
  8
LAYER0001
  6
CONTINUOUS
 62
     9
100
AcDbLine
 10
-9.329254430364314
 20
11.58003927260312
 30
0.0
 11
-1.779254430364302
 21
11.58003927260312
 31
0.0
  0
INSERT
  5
C2
330
1F
100
AcDbEntity
  8
LAYER0001
 62
     9
100
AcDbBlockReference
  2
_OPEN30
 10
-9.329254430364314
 20
11.58003927260312
 30
0.0
 41
1.500001393912182
 42
1.499994636989232
 50
180.0
  0
INSERT
  5
C3
330
1F
100
AcDbEntity
  8
LAYER0001
 62
     9
100
AcDbBlockReference
  2
_OPEN30
 10
-1.779254430364302
 20
11.58003927260312
 30
0.0
 41
1.500001393912182
 42
1.499994636989232
 50
360.0
  0
LINE
  5
C4
330
1F
100
AcDbEntity
  8
LAYER0001
  6
CONTINUOUS
 62
     9
100
AcDbLine
 10
-21.32925443036432
 20
-4.419960727396877
 30
0.0
 11
-21.32925443036432
 21
1.580039272603123
 31
0.0
  0
INSERT
  5
C5
330
1F
100
AcDbEntity
  8
LAYER0001
 62
     9
100
AcDbBlockReference
  2
_OPEN30
 10
-21.32925443036432
 20
-4.419960727396877
 30
0.0
 41
1.500001393912182
 42
1.499994636989232
 50
270.0
  0
INSERT
  5
C6
330
1F
100
AcDbEntity
  8
LAYER0001
 62
     9
100
AcDbBlockReference
  2
_OPEN30
 10
-21.32925443036432
 20
1.580039272603123
 30
0.0
 41
1.500001393912182
 42
1.499994636989232
 50
90.0
  0
LINE
  5
C7
330
1F
100
AcDbEntity
  8
LAYER0001
  6
CONTINUOUS
 62
     9
100
AcDbLine
 10
21.99982195845699
 20
-6.419960727396877
 30
0.0
 11
33.46682327059874
 21
-6.419960727396877
 31
0.0
  0
LINE
  5
C8
330
1F
100
AcDbEntity
  8
LAYER0001
  6
CONTINUOUS
 62
     9
100
AcDbLine
 10
21.99982195845699
 20
3.580039272603123
 30
0.0
 11
33.46682327059874
 21
3.580039272603123
 31
0.0
  0
LINE
  5
C9
330
1F
100
AcDbEntity
  8
LAYER0001
  6
CONTINUOUS
 62
     9
100
AcDbLine
 10
19.3707455696357
 20
-10.41996072739688
 30
0.0
 11
21.7707455696357
 21
-10.41996072739688
 31
0.0
  0
LINE
  5
CA
330
1F
100
AcDbEntity
  8
LAYER0001
  6
CONTINUOUS
 62
     9
100
AcDbLine
 10
19.3707455696357
 20
-4.669960727396877
 30
0.0
 11
19.3707455696357
 21
-10.91996072739688
 31
0.0
  0
LINE
  5
CB
330
1F
100
AcDbEntity
  8
LAYER0001
  6
CONTINUOUS
 62
     9
100
AcDbLine
 10
20.7707455696357
 20
7.580039272603123
 30
0.0
 11
21.7707455696357
 21
7.580039272603123
 31
0.0
  0
LINE
  5
CC
330
1F
100
AcDbEntity
  8
LAYER0001
  6
CONTINUOUS
 62
     9
100
AcDbLine
 10
20.7707455696357
 20
1.780039272603112
 30
0.0
 11
20.7707455696357
 21
8.080039272603123
 31
0.0
  0
LINE
  5
CD
330
1F
100
AcDbEntity
  8
LAYER0001
  6
CONTINUOUS
 62
     9
100
AcDbLine
 10
21.7707455696357
 20
3.680039272603111
 30
0.0
 11
21.7707455696357
 21
11.3143714409333
 31
0.0
  0
LINE
  5
CE
330
1F
100
AcDbEntity
  8
LAYER0001
  6
CONTINUOUS
 62
     9
100
AcDbLine
 10
-0.2792544303643023
 20
7.580039272603123
 30
0.0
 11
0.2207455696356977
 21
7.580039272603123
 31
0.0
  0
LINE
  5
CF
330
1F
100
AcDbEntity
  8
LAYER0001
  6
CONTINUOUS
 62
     9
100
AcDbLine
 10
-0.2792544303643023
 20
1.780039272603126
 30
0.0
 11
-0.2792544303643023
 21
8.080039272603123
 31
0.0
  0
LINE
  5
D0
330
1F
100
AcDbEntity
  8
LAYER0001
  6
CONTINUOUS
 62
     9
100
AcDbLine
 10
0.2207455696356977
 20
3.680039272603111
 30
0.0
 11
0.2207455696356977
 21
11.3143714409333
 31
0.0
  0
LINE
  5
D1
330
1F
100
AcDbEntity
  8
LAYER0001
  6
CONTINUOUS
 62
     9
100
AcDbLine
 10
-9.329254430364314
 20
-0.7199607273968738
 30
0.0
 11
-9.329254430364314
 21
11.3143714409333
 31
0.0
  0
LINE
  5
D2
330
1F
100
AcDbEntity
  8
LAYER0001
  6
CONTINUOUS
 62
     9
100
AcDbLine
 10
-4.329254430364307
 20
-0.2199607273968738
 30
0.0
 11
-4.329254430364307
 21
8.080039272603123
 31
0.0
  0
LINE
  5
D3
330
1F
100
AcDbEntity
  8
LAYER0001
  6
CONTINUOUS
 62
     9
100
AcDbLine
 10
-1.779254430364302
 20
11.58003927260312
 30
0.0
 11
0.2207455696356977
 21
11.58003927260312
 31
0.0
  0
LINE
  5
D4
330
1F
100
AcDbEntity
  8
LAYER0001
  6
CONTINUOUS
 62
     9
100
AcDbLine
 10
-9.329254430364314
 20
-0.7199607273968738
 30
0.0
 11
-9.329254430364314
 21
12.08003927260312
 31
0.0
  0
LINE
  5
D5
330
1F
100
AcDbEntity
  8
LAYER0001
  6
CONTINUOUS
 62
     9
100
AcDbLine
 10
-1.779254430364302
 20
1.530039272603112
 30
0.0
 11
-1.779254430364302
 21
12.08003927260312
 31
0.0
  0
LINE
  5
D6
330
1F
100
AcDbEntity
  8
LAYER0001
  6
CONTINUOUS
 62
     9
100
AcDbLine
 10
0.2207455696356977
 20
3.680039272603111
 30
0.0
 11
0.2207455696356977
 21
12.08003927260312
 31
0.0
  0
LINE
  5
D7
330
1F
100
AcDbEntity
  8
LAYER0001
  6
CONTINUOUS
 62
     9
100
AcDbLine
 10
21.7707455696357
 20
3.680039272603111
 30
0.0
 11
21.7707455696357
 21
12.08003927260312
 31
0.0
  0
LINE
  5
D8
330
1F
100
AcDbEntity
  8
LAYER0001
  6
CONTINUOUS
 62
     9
100
AcDbLine
 10
-13.32925443036431
 20
-2.419960727396877
 30
0.0
 11
-13.32925443036431
 21
-0.9199607273968766
 31
0.0
  0
LINE
  5
D9
330
1F
100
AcDbEntity
  8
LAYER0001
  6
CONTINUOUS
 62
     9
100
AcDbLine
 10
-9.429254430364308
 20
-2.419960727396877
 30
0.0
 11
-15.02946089598769
 21
-2.419960727396877
 31
0.0
  0
LINE
  5
DA
330
1F
100
AcDbEntity
  8
LAYER0001
  6
CONTINUOUS
 62
     9
100
AcDbLine
 10
-9.529254430364309
 20
-0.9199607273968766
 30
0.0
 11
-15.02946089598769
 21
-0.9199607273968766
 31
0.0
  0
LINE
  5
DB
330
1F
100
AcDbEntity
  8
LAYER0001
  6
CONTINUOUS
 62
     9
100
AcDbLine
 10
-17.32925443036432
 20
-2.419960727396877
 30
0.0
 11
-17.32925443036432
 21
-0.4199607273968766
 31
0.0
  0
LINE
  5
DC
330
1F
100
AcDbEntity
  8
LAYER0001
  6
CONTINUOUS
 62
     9
100
AcDbLine
 10
-9.429254430364308
 20
-2.419960727396877
 30
0.0
 11
-17.72635482957156
 21
-2.419960727396877
 31
0.0
  0
LINE
  5
DD
330
1F
100
AcDbEntity
  8
LAYER0001
  6
CONTINUOUS
 62
     9
100
AcDbLine
 10
-4.529254430364309
 20
-0.4199607273968766
 30
0.0
 11
-17.72635482957156
 21
-0.4199607273968766
 31
0.0
  0
LINE
  5
DE
330
1F
100
AcDbEntity
  8
LAYER0001
  6
CONTINUOUS
 62
     9
100
AcDbLine
 10
-0.4792544303643052
 20
-4.419960727396877
 30
0.0
 11
-21.82925443036432
 21
-4.419960727396877
 31
0.0
  0
LINE
  5
DF
330
1F
100
AcDbEntity
  8
LAYER0001
  6
CONTINUOUS
 62
     9
100
AcDbLine
 10
-0.4792544303643052
 20
1.580039272603123
 30
0.0
 11
-21.82925443036432
 21
1.580039272603123
 31
0.0
  0
LINE
  5
E0
330
1F
100
AcDbEntity
  8
LAYER0001
  6
CONTINUOUS
 62
     9
100
AcDbLine
 10
-6.313537512486072
 20
-10.41996072739688
 30
0.0
 11
-24.51353751248608
 21
-10.41996072739688
 31
0.0
  0
LINE
  5
E1
330
1F
100
AcDbEntity
  8
LAYER0001
  6
CONTINUOUS
 62
     9
100
AcDbLine
 10
27.96682327059874
 20
-4.419960727396877
 30
0.0
 11
27.96682327059874
 21
1.580039272603109
 31
0.0
  0
LINE
  5
E2
330
1F
100
AcDbEntity
  8
LAYER0001
  6
CONTINUOUS
 62
     9
100
AcDbLine
 10
22.05905825617937
 20
1.580039272603109
 30
0.0
 11
28.69070091601346
 21
1.580039272603109
 31
0.0
  0
LINE
  5
E3
330
1F
100
AcDbEntity
  8
LAYER0001
  6
CONTINUOUS
 62
     9
100
AcDbLine
 10
22.05905825617937
 20
-4.419960727396877
 30
0.0
 11
28.69070091601346
 21
-4.419960727396877
 31
0.0
  0
LINE
  5
E4
330
1F
100
AcDbEntity
  8
LAYER0001
  6
CONTINUOUS
 62
     9
100
AcDbLine
 10
11.52873054051957
 20
-10.41996072739688
 30
0.0
 11
19.3707455696357
 21
-10.41996072739688
 31
0.0
  0
INSERT
  5
E5
330
1F
100
AcDbEntity
  8
LAYER0001
 62
     9
100
AcDbBlockReference
  2
_OPEN30
 10
19.3707455696357
 20
-10.41996072739688
 30
0.0
 41
1.500001393912182
 42
1.499994636989232
 50
360.0
  0
LINE
  5
E6
330
1F
100
AcDbEntity
  8
LAYER0001
  6
CONTINUOUS
 62
     9
100
AcDbLine
 10
24.2707455696357
 20
-10.41996072739688
 30
0.0
 11
21.7707455696357
 21
-10.41996072739688
 31
0.0
  0
INSERT
  5
E7
330
1F
100
AcDbEntity
  8
LAYER0001
 62
     9
100
AcDbBlockReference
  2
_OPEN30
 10
21.7707455696357
 20
-10.41996072739688
 30
0.0
 41
1.500001393912182
 42
1.499994636989232
 50
180.0
  0
LINE
  5
E8
330
1F
100
AcDbEntity
  8
LAYER0001
  6
CONTINUOUS
 62
     9
100
AcDbLine
 10
16.62461363576696
 20
7.580039272603124
 30
0.0
 11
20.7707455696357
 21
7.580039272603123
 31
0.0
  0
INSERT
  5
E9
330
1F
100
AcDbEntity
  8
LAYER0001
 62
     9
100
AcDbBlockReference
  2
_OPEN30
 10
20.7707455696357
 20
7.580039272603123
 30
0.0
 41
1.500001393912182
 42
1.499994636989232
 50
360.0
  0
LINE
  5
EA
330
1F
100
AcDbEntity
  8
LAYER0001
  6
CONTINUOUS
 62
     9
100
AcDbLine
 10
24.2707455696357
 20
7.580039272603123
 30
0.0
 11
21.7707455696357
 21
7.580039272603123
 31
0.0
  0
INSERT
  5
EB
330
1F
100
AcDbEntity
  8
LAYER0001
 62
     9
100
AcDbBlockReference
  2
_OPEN30
 10
21.7707455696357
 20
7.580039272603123
 30
0.0
 41
1.500001393912182
 42
1.499994636989232
 50
180.0
  0
LINE
  5
EC
330
1F
100
AcDbEntity
  8
LAYER0001
  6
CONTINUOUS
 62
     9
100
AcDbLine
 10
6.908175915959347
 20
7.580039272603123
 30
0.0
 11
0.2207455696356977
 21
7.580039272603123
 31
0.0
  0
INSERT
  5
ED
330
1F
100
AcDbEntity
  8
LAYER0001
 62
     9
100
AcDbBlockReference
  2
_OPEN30
 10
0.2207455696356977
 20
7.580039272603123
 30
0.0
 41
1.500001393912182
 42
1.499994636989232
 50
180.0
  0
LINE
  5
EE
330
1F
100
AcDbEntity
  8
LAYER0001
  6
CONTINUOUS
 62
     9
100
AcDbLine
 10
-2.779254430364302
 20
7.580039272603123
 30
0.0
 11
-0.2792544303643023
 21
7.580039272603123
 31
0.0
  0
INSERT
  5
EF
330
1F
100
AcDbEntity
  8
LAYER0001
 62
     9
100
AcDbBlockReference
  2
_OPEN30
 10
-0.2792544303643023
 20
7.580039272603123
 30
0.0
 41
1.500001393912182
 42
1.499994636989232
 50
360.0
  0
LINE
  5
F0
330
1F
100
AcDbEntity
  8
LAYER0001
  6
CONTINUOUS
 62
     9
100
AcDbLine
 10
-13.32925443036431
 20
12.86855657090928
 30
0.0
 11
-13.32925443036431
 21
-0.9199607273968766
 31
0.0
  0
INSERT
  5
F1
330
1F
100
AcDbEntity
  8
LAYER0001
 62
     9
100
AcDbBlockReference
  2
_OPEN30
 10
-13.32925443036431
 20
-0.9199607273968766
 30
0.0
 41
1.500001393912182
 42
1.499994636989232
 50
270.0
  0
LINE
  5
F2
330
1F
100
AcDbEntity
  8
LAYER0001
  6
CONTINUOUS
 62
     9
100
AcDbLine
 10
-13.32925443036431
 20
-3.419960727396877
 30
0.0
 11
-13.32925443036431
 21
-2.419960727396877
 31
0.0
  0
INSERT
  5
F3
330
1F
100
AcDbEntity
  8
LAYER0001
 62
     9
100
AcDbBlockReference
  2
_OPEN30
 10
-13.32925443036431
 20
-2.419960727396877
 30
0.0
 41
1.500001393912182
 42
1.499994636989232
 50
90.0
  0
LINE
  5
F4
330
1F
100
AcDbEntity
  8
LAYER0001
  6
CONTINUOUS
 62
     9
100
AcDbLine
 10
-17.32925443036432
 20
12.86855657090928
 30
0.0
 11
-17.32925443036432
 21
-0.4199607273968766
 31
0.0
  0
INSERT
  5
F5
330
1F
100
AcDbEntity
  8
LAYER0001
 62
     9
100
AcDbBlockReference
  2
_OPEN30
 10
-17.32925443036432
 20
-0.4199607273968766
 30
0.0
 41
1.500001393912182
 42
1.499994636989232
 50
270.0
  0
LINE
  5
F6
330
1F
100
AcDbEntity
  8
LAYER0001
  6
CONTINUOUS
 62
     9
100
AcDbLine
 10
-17.32925443036432
 20
-3.419960727396877
 30
0.0
 11
-17.32925443036432
 21
-2.419960727396877
 31
0.0
  0
INSERT
  5
F7
330
1F
100
AcDbEntity
  8
LAYER0001
 62
     9
100
AcDbBlockReference
  2
_OPEN30
 10
-17.32925443036432
 20
-2.419960727396877
 30
0.0
 41
1.500001393912182
 42
1.499994636989232
 50
90.0
  0
LINE
  5
F8
330
1F
100
AcDbEntity
  8
LAYER0001
  6
CONTINUOUS
 62
     9
100
AcDbLine
 10
27.96682327059874
 20
13.89800076797389
 30
0.0
 11
27.96682327059874
 21
1.580039272603109
 31
0.0
  0
INSERT
  5
F9
330
1F
100
AcDbEntity
  8
LAYER0001
 62
     9
100
AcDbBlockReference
  2
_OPEN30
 10
27.96682327059874
 20
1.580039272603109
 30
0.0
 41
1.500001393912182
 42
1.499994636989232
 50
270.0
  0
LINE
  5
FA
330
1F
100
AcDbEntity
  8
LAYER0001
  6
CONTINUOUS
 62
     9
100
AcDbLine
 10
27.96682327059874
 20
-6.919960727396877
 30
0.0
 11
27.96682327059874
 21
-4.419960727396877
 31
0.0
  0
INSERT
  5
FB
330
1F
100
AcDbEntity
  8
LAYER0001
 62
     9
100
AcDbBlockReference
  2
_OPEN30
 10
27.96682327059874
 20
-4.419960727396877
 30
0.0
 41
1.500001393912182
 42
1.499994636989232
 50
90.0
  0
LINE
  5
FC
330
1F
100
AcDbEntity
  8
LAYER0001
  6
CONTINUOUS
 62
     9
100
AcDbLine
 10
-1.779254430364302
 20
-4.169960727396877
 30
0.0
 11
-6.313537512486073
 21
-10.41996072739688
 31
0.0
  0
INSERT
  5
FD
330
1F
100
AcDbEntity
  8
LAYER0001
 62
     9
100
AcDbBlockReference
  2
_OPEN30
 10
-1.779254430364302
 20
-4.169960727396877
 30
0.0
 41
1.500001393912182
 42
1.499994636989232
 50
54.03966685087746
  0
TEXT
  5
FE
330
1F
100
AcDbEntity
  8
LAYER0001
 62
     7
100
AcDbText
 10
32.46682327059874
 20
-6.126360727396876
 30
0.0
 40
2.0
  1
φ10
 50
90.0
 41
0.7499999999999996
  7
FDASTYLE0
 72
     5
 11
32.46682327059874
 21
-1.326360727396879
 31
0.0
100
AcDbText
  0
TEXT
  5
FF
330
1F
100
AcDbEntity
  8
LAYER0001
 62
     7
100
AcDbText
 10
31.16682327059874
 20
-0.8263607273968789
 30
0.0
 40
1.3
  1
±0.1
 50
90.0
 41
0.7619047619047612
  7
FDASTYLE0
 72
     5
 11
31.16682327059874
 21
3.333639272603118
 31
0.0
100
AcDbText
  0
TEXT
  5
100
330
1F
100
AcDbEntity
  8
LAYER0001
 62
     7
100
AcDbText
 10
12.02873054051957
 20
-9.919960727396877
 30
0.0
 40
2.0
  1
2.4
 41
0.8000000000000002
  7
FDASTYLE0
 72
     5
 11
16.82873054051957
 21
-9.919960727396877
 31
0.0
100
AcDbText
  0
TEXT
  5
101
330
1F
100
AcDbEntity
  8
LAYER0001
 62
     7
100
AcDbText
 10
17.12461363576696
 20
8.080039272603123
 30
0.0
 40
2.0
  1
1
 41
0.8000000000000007
  7
FDASTYLE0
 72
     5
 11
18.72461363576696
 21
8.080039272603123
 31
0.0
100
AcDbText
  0
TEXT
  5
102
330
1F
100
AcDbEntity
  8
LAYER0001
 62
     7
100
AcDbText
 10
2.44817591595935
 20
8.080039272603123
 30
0.0
 40
2.0
  1
0.5
 41
0.8000000000000002
  7
FDASTYLE0
 72
     5
 11
7.248175915959351
 21
8.080039272603123
 31
0.0
100
AcDbText
  0
TEXT
  5
103
330
1F
100
AcDbEntity
  8
LAYER0001
 62
     7
100
AcDbText
 10
-7.629254430364306
 20
7.780039272603119
 30
0.0
 40
2.0
  1
5
 41
0.7999999999999998
  7
FDASTYLE0
 72
     5
 11
-6.029254430364307
 21
7.780039272603119
 31
0.0
100
AcDbText
  0
TEXT
  5
104
330
1F
100
AcDbEntity
  8
LAYER0001
 62
     7
100
AcDbText
 10
-8.954254430364308
 20
11.78003927260312
 30
0.0
 40
2.0
  1
7.55
 41
0.8000000000000002
  7
FDASTYLE0
 72
     5
 11
-2.554254430364307
 21
11.78003927260312
 31
0.0
100
AcDbText
  0
TEXT
  5
105
330
1F
100
AcDbEntity
  8
LAYER0001
 62
     7
100
AcDbText
 10
-1.558693837697406
 20
11.75550684653273
 30
0.0
 40
2.0
  1
2
 41
0.8
  7
FDASTYLE0
 72
     5
 11
0.0413061623025945
 21
11.75550684653273
 31
0.0
100
AcDbText
  0
TEXT
  5
106
330
1F
100
AcDbEntity
  8
LAYER0001
 62
     7
100
AcDbText
 10
-13.69655734424916
 20
2.126606358695033
 30
0.0
 40
2.0
  1
1.5
 50
90.0
 41
0.8000000000000002
  7
FDASTYLE0
 72
     5
 11
-13.69655734424916
 21
6.926606358695034
 31
0.0
100
AcDbText
  0
TEXT
  5
107
330
1F
100
AcDbEntity
  8
LAYER0001
 62
     7
100
AcDbText
 10
-14.76701899864248
 20
7.330296915946773
 30
0.0
 40
1.4
  1
±0.1
 50
90.0
 41
0.7619047619047621
  7
FDASTYLE0
 72
     5
 11
-14.76701899864248
 21
11.81029691594677
 31
0.0
100
AcDbText
  0
TEXT
  5
108
330
1F
100
AcDbEntity
  8
LAYER0001
 62
     7
100
AcDbText
 10
-17.9035306531344
 20
2.036671245199031
 30
0.0
 40
2.0
  1
φ2
 50
90.0
 41
0.7272727272727271
  7
FDASTYLE0
 72
     5
 11
-17.9035306531344
 21
5.23667124519903
 31
0.0
100
AcDbText
  0
TEXT
  5
109
330
1F
100
AcDbEntity
  8
LAYER0001
 62
     7
100
AcDbText
 10
-19.15175443036432
 20
5.785195272603126
 30
0.0
 40
1.4
  1
+0.005
 50
90.0
 41
0.8
  7
FDASTYLE0
 72
     5
 11
-19.15175443036432
 21
12.50519527260313
 31
0.0
100
AcDbText
  0
TEXT
  5
10A
330
1F
100
AcDbEntity
  8
LAYER0001
 62
     7
100
AcDbText
 10
-17.72925443036432
 20
5.785195272603126
 30
0.0
 40
1.4
  1
-0.015
 50
90.0
 41
0.8
  7
FDASTYLE0
 72
     5
 11
-17.72925443036432
 21
12.50519527260313
 31
0.0
100
AcDbText
  0
TEXT
  5
10B
330
1F
100
AcDbEntity
  8
LAYER0001
 62
     7
100
AcDbText
 10
-22.02925443036432
 20
-3.019960727396878
 30
0.0
 40
2.0
  1
φ6
 50
90.0
 41
0.7272727272727279
  7
FDASTYLE0
 72
     5
 11
-22.02925443036432
 21
0.1800392726031248
 31
0.0
100
AcDbText
  0
TEXT
  5
10C
330
1F
100
AcDbEntity
  8
LAYER0001
 62
     7
100
AcDbText
 10
-24.51353751248607
 20
-9.969960727396877
 30
0.0
 40
2.0
  1
Ｍ5.5（Ｐ＝0.5）
 41
0.7333333333333334
  7
FDASTYLE0
 72
     5
 11
-6.913537512486073
 21
-9.969960727396877
 31
0.0
100
AcDbText
  0
TEXT
  5
10D
330
1F
100
AcDbEntity
  8
LAYER0001
 62
     7
100
AcDbText
 10
4.946870736930578
 20
-17.50902152575069
 30
0.0
 40
2.0
  1
（ＰＩＮＩＯＮ　ＰＯＳＩＴＩＯＮ）
 41
0.6666666666666667
  7
FDASTYLE0
 72
     5
 11
32.14687073693058
 21
-17.50902152575069
 31
0.0
100
AcDbText
  0
TEXT
  5
10E
330
1F
100
AcDbEntity
  8
LAYER0001
 62
     7
100
AcDbText
 10
26.09432327059874
 20
7.350105119019922
 30
0.0
 40
1.4
  1
+0.005
 50
90.0
 41
0.7999999999999996
  7
FDASTYLE0
 72
     5
 11
26.09432327059874
 21
14.07010511901992
 31
0.0
100
AcDbText
  0
TEXT
  5
10F
330
1F
100
AcDbEntity
  8
LAYER0001
 62
     7
100
AcDbText
 10
27.56682327059874
 20
7.350105119019922
 30
0.0
 40
1.4
  1
-0.010
 50
90.0
 41
0.8
  7
FDASTYLE0
 72
     5
 11
27.56682327059874
 21
14.07010511901992
 31
0.0
100
AcDbText
  0
TEXT
  5
110
330
1F
100
AcDbEntity
  8
LAYER0001
 62
     7
100
AcDbText
 10
27.46682327059874
 20
4.210105119019922
 30
0.0
 40
2.0
  1
φ6
 50
90.0
 41
0.7272727272727271
  7
FDASTYLE0
 72
     5
 11
27.46682327059874
 21
7.410105119019921
 31
0.0
100
AcDbText
  0
INSERT
  5
111
330
1F
100
AcDbEntity
  8
0
  6
CONTINUOUS
100
AcDbBlockReference
  2
DA_IMAGEDIMGROUP_1
 10
0.0
 20
0.0
 30
0.0
  0
INSERT
  5
112
330
1F
100
AcDbEntity
  8
0
  6
CONTINUOUS
100
AcDbBlockReference
  2
DA_IMAGEDIMGROUP_2
 10
0.0
 20
0.0
 30
0.0
  0
LINE
  5
113
330
1F
100
AcDbEntity
  8
LAYER0003
  6
CENTER
 62
     9
100
AcDbLine
 10
17.66622172359142
 20
-2.719960727396888
 30
0.0
 11
19.24485483524547
 21
-2.719960727396888
 31
0.0
  0
LINE
  5
114
330
1F
100
AcDbEntity
  8
LAYER0003
  6
CENTER
 62
     9
100
AcDbLine
 10
17.66622172359142
 20
-0.1199607273968937
 30
0.0
 11
19.24485483524547
 21
-0.1199607273968937
 31
0.0
  0
LINE
  5
115
330
1F
100
AcDbEntity
  8
LAYER0003
  6
DASHED2
 62
     9
100
AcDbLine
 10
17.7707455696357
 20
-2.919960727396891
 30
0.0
 11
19.1707455696357
 21
-2.919960727396891
 31
0.0
  0
LINE
  5
116
330
1F
100
AcDbEntity
  8
LAYER0003
  6
DASHED2
 62
     9
100
AcDbLine
 10
17.7707455696357
 20
0.0800392726031092
 30
0.0
 11
17.7707455696357
 21
-2.919960727396891
 31
0.0
  0
LINE
  5
117
330
1F
100
AcDbEntity
  8
LAYER0003
  6
DASHED2
 62
     9
100
AcDbLine
 10
19.1707455696357
 20
0.0800392726031092
 30
0.0
 11
19.1707455696357
 21
-2.919960727396891
 31
0.0
  0
LINE
  5
118
330
1F
100
AcDbEntity
  8
LAYER0003
  6
DASHED2
 62
     9
100
AcDbLine
 10
17.7707455696357
 20
0.0800392726031092
 30
0.0
 11
19.1707455696357
 21
0.0800392726031092
 31
0.0
  0
VIEWPORT
  5
48
330
1B
100
AcDbEntity
 67
     1
  8
0
100
AcDbViewport
 10
-1.030163952365669
 20
-1.294530399176907
 30
0.0
 40
222.4880575173356
 41
97.2869467594427
 68
     1
 69
     1
1001
ACAD
1000
MVIEW
1002
{
1070
    16
1010
0.0
1020
0.0
1030
0.0
1010
0.0
1020
0.0
1030
1.0
1040
0.0
1040
97.2869467594427
1040
-1.030163952365669
1040
-1.294530399176907
1040
50.0
1040
0.0
1040
0.0
1070
     0
1070
   100
1070
     0
1070
     1
1070
     0
1070
     0
1070
     0
1070
     0
1040
0.0
1040
0.0
1040
0.0
1040
0.5
1040
0.5
1040
0.0
1040
0.0
1070
     0
1002
{
1002
}
1002
}
  0
ENDSEC
  0
SECTION
  2
OBJECTS
  0
DICTIONARY
  5
C
330
0
100
AcDbDictionary
  3
ACAD_GROUP
350
D
  3
ACAD_LAYOUT
350
1A
  3
ACAD_MLINESTYLE
350
17
  3
ACAD_PLOTSETTINGS
350
19
  3
ACDBHEADERROUNDTRIPXREC
350
119
  0
DICTIONARY
  5
D
102
{ACAD_REACTORS
330
C
102
}
330
C
100
AcDbDictionary
  0
DICTIONARY
  5
1A
102
{ACAD_REACTORS
330
C
102
}
330
C
100
AcDbDictionary
  0
DICTIONARY
  5
17
102
{ACAD_REACTORS
330
C
102
}
330
C
100
AcDbDictionary
  3
STANDARD
350
18
  0
DICTIONARY
  5
19
102
{ACAD_REACTORS
330
C
102
}
330
C
100
AcDbDictionary
  0
DICTIONARY
  5
119
102
{ACAD_REACTORS
330
C
102
}
330
C
100
AcDbDictionary
  3
CEPSNTYPE
350
122
  3
DIMSTYLEDATA
350
138
  3
FINGERPRINTGUID
350
123
  3
HYPERLINKBASE
350
11C
  3
INSUNITS
350
121
  3
LAYOUTDICT
350
11E
  3
LWETCUNION
350
120
  3
PLOTSETDICT
350
11F
  3
PSVPSCALE
350
125
  3
PUCSBASE
350
128
  3
PUCSORGBACK
350
12E
  3
PUCSORGBOTTOM
350
12A
  3
PUCSORGFRONT
350
12D
  3
PUCSORGLEFT
350
12B
  3
PUCSORGRIGHT
350
12C
  3
PUCSORGTOP
350
129
  3
PUCSORTHOREF
350
126
  3
PUCSORTHOVIEW
350
127
  3
STYLESHEET
350
11D
  3
TSTACKALIGN
350
11A
  3
TSTACKSIZE
350
11B
  3
UCSBASE
350
131
  3
UCSORGBACK
350
137
  3
UCSORGBOTTOM
350
133
  3
UCSORGFRONT
350
136
  3
UCSORGLEFT
350
134
  3
UCSORGRIGHT
350
135
  3
UCSORGTOP
350
132
  3
UCSORTHOREF
350
12F
  3
UCSORTHOVIEW
350
130
  3
VERSIONGUID
350
124
  0
MLINESTYLE
  5
18
102
{ACAD_REACTORS
330
17
102
}
330
17
100
AcDbMlineStyle
  2
Standard
 70
     0
  3

 62
   256
 51
90.0
 52
90.0
 71
     2
 49
0.5
 62
   256
  6
BYLAYER
 49
-0.5
 62
   256
  6
BYLAYER
  0
XRECORD
  5
122
102
{ACAD_REACTORS
330
119
102
}
330
119
100
AcDbXrecord
 90
        0
  0
XRECORD
  5
138
102
{ACAD_REACTORS
330
119
102
}
330
119
100
AcDbXrecord
1000
DSTYLE
1002
{
1070
   171
 70
     2
1070
   143
 40
25.4
1070
   274
 70
     2
1070
    41
 40
1.25
1070
   141
 40
0.09
1070
   271
 70
     4
1070
    43
 40
0.38
1070
    44
 40
0.18
1070
   278
 70
    46
1070
    42
 40
0.0625
1070
   147
 40
0.09
1070
    77
 70
     3
1070
   272
 70
     4
1070
    73
 70
     1
1070
   172
 70
     0
1070
    74
 70
     1
1070
   283
 70
     1
1070
   340
340
11
1070
   140
 40
0.18
1070
   284
 70
     0
1070
    78
 70
     0
1002
}
  0
XRECORD
  5
123
102
{ACAD_REACTORS
330
119
102
}
330
119
100
AcDbXrecord
  1
{9CCF71B1-B376-4C68-9DBC-E0CEA853F4EF}
  0
XRECORD
  5
11C
102
{ACAD_REACTORS
330
119
102
}
330
119
100
AcDbXrecord
  1

  0
XRECORD
  5
121
102
{ACAD_REACTORS
330
119
102
}
330
119
100
AcDbXrecord
 90
        4
  0
XRECORD
  5
11E
102
{ACAD_REACTORS
330
119
102
}
330
119
100
AcDbXrecord
340
1A
  0
XRECORD
  5
120
102
{ACAD_REACTORS
330
119
102
}
330
119
100
AcDbXrecord
 90
    10781
  0
XRECORD
  5
11F
102
{ACAD_REACTORS
330
119
102
}
330
119
100
AcDbXrecord
340
19
  0
XRECORD
  5
125
102
{ACAD_REACTORS
330
119
102
}
330
119
100
AcDbXrecord
 40
0.0
  0
XRECORD
  5
128
102
{ACAD_REACTORS
330
119
102
}
330
119
100
AcDbXrecord
340
0
  0
XRECORD
  5
12E
102
{ACAD_REACTORS
330
119
102
}
330
119
100
AcDbXrecord
 10
0.0
 20
0.0
 30
0.0
  0
XRECORD
  5
12A
102
{ACAD_REACTORS
330
119
102
}
330
119
100
AcDbXrecord
 10
0.0
 20
0.0
 30
0.0
  0
XRECORD
  5
12D
102
{ACAD_REACTORS
330
119
102
}
330
119
100
AcDbXrecord
 10
0.0
 20
0.0
 30
0.0
  0
XRECORD
  5
12B
102
{ACAD_REACTORS
330
119
102
}
330
119
100
AcDbXrecord
 10
0.0
 20
0.0
 30
0.0
  0
XRECORD
  5
12C
102
{ACAD_REACTORS
330
119
102
}
330
119
100
AcDbXrecord
 10
0.0
 20
0.0
 30
0.0
  0
XRECORD
  5
129
102
{ACAD_REACTORS
330
119
102
}
330
119
100
AcDbXrecord
 10
0.0
 20
0.0
 30
0.0
  0
XRECORD
  5
126
102
{ACAD_REACTORS
330
119
102
}
330
119
100
AcDbXrecord
340
0
  0
XRECORD
  5
127
102
{ACAD_REACTORS
330
119
102
}
330
119
100
AcDbXrecord
 70
     0
  0
XRECORD
  5
11D
102
{ACAD_REACTORS
330
119
102
}
330
119
100
AcDbXrecord
  1

  0
XRECORD
  5
11A
102
{ACAD_REACTORS
330
119
102
}
330
119
100
AcDbXrecord
 90
        1
  0
XRECORD
  5
11B
102
{ACAD_REACTORS
330
119
102
}
330
119
100
AcDbXrecord
 90
       70
  0
XRECORD
  5
131
102
{ACAD_REACTORS
330
119
102
}
330
119
100
AcDbXrecord
340
0
  0
XRECORD
  5
137
102
{ACAD_REACTORS
330
119
102
}
330
119
100
AcDbXrecord
 10
0.0
 20
0.0
 30
0.0
  0
XRECORD
  5
133
102
{ACAD_REACTORS
330
119
102
}
330
119
100
AcDbXrecord
 10
0.0
 20
0.0
 30
0.0
  0
XRECORD
  5
136
102
{ACAD_REACTORS
330
119
102
}
330
119
100
AcDbXrecord
 10
0.0
 20
0.0
 30
0.0
  0
XRECORD
  5
134
102
{ACAD_REACTORS
330
119
102
}
330
119
100
AcDbXrecord
 10
0.0
 20
0.0
 30
0.0
  0
XRECORD
  5
135
102
{ACAD_REACTORS
330
119
102
}
330
119
100
AcDbXrecord
 10
0.0
 20
0.0
 30
0.0
  0
XRECORD
  5
132
102
{ACAD_REACTORS
330
119
102
}
330
119
100
AcDbXrecord
 10
0.0
 20
0.0
 30
0.0
  0
XRECORD
  5
12F
102
{ACAD_REACTORS
330
119
102
}
330
119
100
AcDbXrecord
340
0
  0
XRECORD
  5
130
102
{ACAD_REACTORS
330
119
102
}
330
119
100
AcDbXrecord
 70
     0
  0
XRECORD
  5
124
102
{ACAD_REACTORS
330
119
102
}
330
119
100
AcDbXrecord
  1
{FAEB1C32-E019-11D5-929B-00C0DF256EC4}
  0
ENDSEC
  0
EOF
